  0
SECTION
  2
HEADER
  9
$ACADVER
  1
AC1015
  9
$ACADMAINTVER
 70
     6
  9
$DWGCODEPAGE
  3
ANSI_1254
  9
$INSBASE
 10
0.0
 20
0.0
 30
0.0
  9
$EXTMIN
 10
0.0
 20
0.0
 30
0.0
  9
$EXTMAX
 10
279.4
 20
215.9
 30
0.0
  9
$LIMMIN
 10
0.0
 20
0.0
  9
$LIMMAX
 10
279.4
 20
215.9
  9
$ORTHOMODE
 70
     0
  9
$REGENMODE
 70
     1
  9
$FILLMODE
 70
     1
  9
$QTEXTMODE
 70
     0
  9
$MIRRTEXT
 70
     1
  9
$LTSCALE
 40
1.0
  9
$ATTMODE
 70
     1
  9
$TEXTSIZE
 40
3.5
  9
$TRACEWID
 40
1.0
  9
$TEXTSTYLE
  7
Standard
  9
$CLAYER
  8
0
  9
$CELTYPE
  6
ByLayer
  9
$CECOLOR
 62
   256
  9
$CELTSCALE
 40
1.0
  9
$DISPSILH
 70
     0
  9
$DIMSCALE
 40
1.0
  9
$DIMASZ
 40
3.5
  9
$DIMEXO
 40
1.0
  9
$DIMDLI
 40
3.75
  9
$DIMRND
 40
0.0
  9
$DIMDLE
 40
0.0
  9
$DIMEXE
 40
1.0
  9
$DIMTP
 40
0.0
  9
$DIMTM
 40
0.0
  9
$DIMTXT
 40
3.5
  9
$DIMCEN
 40
2.5
  9
$DIMTSZ
 40
0.0
  9
$DIMTOL
 70
     0
  9
$DIMLIM
 70
     0
  9
$DIMTIH
 70
     1
  9
$DIMTOH
 70
     1
  9
$DIMSE1
 70
     0
  9
$DIMSE2
 70
     0
  9
$DIMTAD
 70
     1
  9
$DIMZIN
 70
     0
  9
$DIMBLK
  1

  9
$DIMASO
 70
     1
  9
$DIMSHO
 70
     1
  9
$DIMPOST
  1

  9
$DIMAPOST
  1

  9
$DIMALT
 70
     0
  9
$DIMALTD
 70
     3
  9
$DIMALTF
 40
0.0393700787
  9
$DIMLFAC
 40
1.0
  9
$DIMTOFL
 70
     1
  9
$DIMTVP
 40
0.0
  9
$DIMTIX
 70
     0
  9
$DIMSOXD
 70
     0
  9
$DIMSAH
 70
     0
  9
$DIMBLK1
  1

  9
$DIMBLK2
  1

  9
$DIMSTYLE
  2
ISO-25
  9
$DIMCLRD
 70
     0
  9
$DIMCLRE
 70
     0
  9
$DIMCLRT
 70
     0
  9
$DIMTFAC
 40
1.0
  9
$DIMGAP
 40
1.524
  9
$DIMJUST
 70
     0
  9
$DIMSD1
 70
     0
  9
$DIMSD2
 70
     0
  9
$DIMTOLJ
 70
     0
  9
$DIMTZIN
 70
     0
  9
$DIMALTZ
 70
     0
  9
$DIMALTTZ
 70
     0
  9
$DIMUPT
 70
     0
  9
$DIMDEC
 70
     2
  9
$DIMTDEC
 70
     2
  9
$DIMALTU
 70
     2
  9
$DIMALTTD
 70
     3
  9
$DIMTXSTY
  7
Standard
  9
$DIMAUNIT
 70
     0
  9
$DIMADEC
 70
     2
  9
$DIMALTRND
 40
0.0
  9
$DIMAZIN
 70
     0
  9
$DIMDSEP
 70
    44
  9
$DIMATFIT
 70
     3
  9
$DIMFRAC
 70
     0
  9
$DIMLDRBLK
  1

  9
$DIMLUNIT
 70
     2
  9
$DIMLWD
 70
    -2
  9
$DIMLWE
 70
    -2
  9
$DIMTMOVE
 70
     0
  9
$LUNITS
 70
     2
  9
$LUPREC
 70
     2
  9
$SKETCHINC
 40
1.0
  9
$FILLETRAD
 40
10.0
  9
$AUNITS
 70
     0
  9
$AUPREC
 70
     2
  9
$MENU
  1
.
  9
$ELEVATION
 40
0.0
  9
$PELEVATION
 40
0.0
  9
$THICKNESS
 40
0.0
  9
$LIMCHECK
 70
     0
  9
$CHAMFERA
 40
0.0
  9
$CHAMFERB
 40
0.0
  9
$CHAMFERC
 40
0.0
  9
$CHAMFERD
 40
0.0
  9
$SKPOLY
 70
     0
  9
$TDCREATE
 40
2458985.683637361
  9
$TDUCREATE
 40
2458985.558637361
  9
$TDUPDATE
 40
2458985.683637732
  9
$TDUUPDATE
 40
2458985.558637732
  9
$TDINDWG
 40
0.0000000116
  9
$TDUSRTIMER
 40
0.0000000116
  9
$USRTIMER
 70
     1
  9
$ANGBASE
 50
0.0
  9
$ANGDIR
 70
     0
  9
$PDMODE
 70
     0
  9
$PDSIZE
 40
-1.0
  9
$PLINEWID
 40
0.0
  9
$SPLFRAME
 70
     0
  9
$SPLINETYPE
 70
     6
  9
$SPLINESEGS
 70
     8
  9
$HANDSEED
  5
CB
  9
$SURFTAB1
 70
     6
  9
$SURFTAB2
 70
     6
  9
$SURFTYPE
 70
     6
  9
$SURFU
 70
     6
  9
$SURFV
 70
     6
  9
$UCSBASE
  2

  9
$UCSNAME
  2

  9
$UCSORG
 10
0.0
 20
0.0
 30
0.0
  9
$UCSXDIR
 10
1.0
 20
0.0
 30
0.0
  9
$UCSYDIR
 10
0.0
 20
1.0
 30
0.0
  9
$UCSORTHOREF
  2

  9
$UCSORTHOVIEW
 70
     0
  9
$UCSORGTOP
 10
0.0
 20
0.0
 30
0.0
  9
$UCSORGBOTTOM
 10
0.0
 20
0.0
 30
0.0
  9
$UCSORGLEFT
 10
0.0
 20
0.0
 30
0.0
  9
$UCSORGRIGHT
 10
0.0
 20
0.0
 30
0.0
  9
$UCSORGFRONT
 10
0.0
 20
0.0
 30
0.0
  9
$UCSORGBACK
 10
0.0
 20
0.0
 30
0.0
  9
$PUCSBASE
  2

  9
$PUCSNAME
  2

  9
$PUCSORG
 10
0.0
 20
0.0
 30
0.0
  9
$PUCSXDIR
 10
1.0
 20
0.0
 30
0.0
  9
$PUCSYDIR
 10
0.0
 20
1.0
 30
0.0
  9
$PUCSORTHOREF
  2

  9
$PUCSORTHOVIEW
 70
     0
  9
$PUCSORGTOP
 10
0.0
 20
0.0
 30
0.0
  9
$PUCSORGBOTTOM
 10
0.0
 20
0.0
 30
0.0
  9
$PUCSORGLEFT
 10
0.0
 20
0.0
 30
0.0
  9
$PUCSORGRIGHT
 10
0.0
 20
0.0
 30
0.0
  9
$PUCSORGFRONT
 10
0.0
 20
0.0
 30
0.0
  9
$PUCSORGBACK
 10
0.0
 20
0.0
 30
0.0
  9
$USERI1
 70
     0
  9
$USERI2
 70
     0
  9
$USERI3
 70
     0
  9
$USERI4
 70
     0
  9
$USERI5
 70
     0
  9
$USERR1
 40
0.0
  9
$USERR2
 40
0.0
  9
$USERR3
 40
0.0
  9
$USERR4
 40
0.0
  9
$USERR5
 40
0.0
  9
$WORLDVIEW
 70
     1
  9
$SHADEDGE
 70
     3
  9
$SHADEDIF
 70
    70
  9
$TILEMODE
 70
     1
  9
$MAXACTVP
 70
    64
  9
$PINSBASE
 10
0.0
 20
0.0
 30
0.0
  9
$PLIMCHECK
 70
     0
  9
$PEXTMIN
 10
1.0000000000E+20
 20
1.0000000000E+20
 30
1.0000000000E+20
  9
$PEXTMAX
 10
-1.0000000000E+20
 20
-1.0000000000E+20
 30
-1.0000000000E+20
  9
$PLIMMIN
 10
0.0
 20
0.0
  9
$PLIMMAX
 10
420.0
 20
297.0
  9
$UNITMODE
 70
     0
  9
$VISRETAIN
 70
     1
  9
$PLINEGEN
 70
     0
  9
$PSLTSCALE
 70
     1
  9
$TREEDEPTH
 70
  3020
  9
$CMLSTYLE
  2
Standard
  9
$CMLJUST
 70
     0
  9
$CMLSCALE
 40
20.0
  9
$PROXYGRAPHICS
 70
     1
  9
$MEASUREMENT
 70
     1
  9
$CELWEIGHT
370
    -1
  9
$ENDCAPS
280
     0
  9
$JOINSTYLE
280
     0
  9
$LWDISPLAY
290
     1
  9
$INSUNITS
 70
     4
  9
$HYPERLINKBASE
  1

  9
$STYLESHEET
  1

  9
$XEDIT
290
     1
  9
$CEPSNTYPE
380
     0
  9
$PSTYLEMODE
290
     1
  9
$FINGERPRINTGUID
  2
{4751ded5-21c7-477e-831c-1fa4c91598f4}
  9
$VERSIONGUID
  2
{FAEB1C32-E019-11D5-929B-00C0DF256EC4}
  9
$EXTNAMES
290
     1
  9
$PSVPSCALE
 40
0.0
  9
$OLESTARTUP
290
     0
  0
ENDSEC
  0
SECTION
  2
CLASSES
  0
CLASS
  1
ACDBDICTIONARYWDFLT
  2
AcDbDictionaryWithDefault
  3
ObjectDBX Classes
 90
        0
280
     0
281
     0
  0
CLASS
  1
VISUALSTYLE
  2
AcDbVisualStyle
  3
ObjectDBX Classes
 90
     4095
280
     0
281
     0
  0
CLASS
  1
MATERIAL
  2
AcDbMaterial
  3
ObjectDBX Classes
 90
     1153
280
     0
281
     0
  0
CLASS
  1
SCALE
  2
AcDbScale
  3
ObjectDBX Classes
 90
     1153
280
     0
281
     0
  0
CLASS
  1
TABLESTYLE
  2
AcDbTableStyle
  3
ObjectDBX Classes
 90
     4095
280
     0
281
     0
  0
CLASS
  1
MLEADERSTYLE
  2
AcDbMLeaderStyle
  3
ACDB_MLEADERSTYLE_CLASS
 90
     4095
280
     0
281
     0
  0
CLASS
  1
SUN
  2
AcDbSun
  3
SCENEOE
 90
     1153
280
     0
281
     0
  0
CLASS
  1
ACDBPLACEHOLDER
  2
AcDbPlaceHolder
  3
ObjectDBX Classes
 90
        0
280
     0
281
     0
  0
CLASS
  1
LAYOUT
  2
AcDbLayout
  3
ObjectDBX Classes
 90
        0
280
     0
281
     0
  0
ENDSEC
  0
SECTION
  2
TABLES
  0
TABLE
  2
VPORT
  5
8
330
0
100
AcDbSymbolTable
 70
     1
  0
VPORT
  5
29
330
8
100
AcDbSymbolTableRecord
100
AcDbViewportTableRecord
  2
*Active
 70
     0
 10
0.0
 20
0.0
 11
1.0
 21
1.0
 12
139.7
 22
107.95
 13
0.0
 23
0.0
 14
10.0
 24
10.0
 15
10.0
 25
10.0
 16
0.0
 26
0.0
 36
1.0
 17
0.0
 27
0.0
 37
0.0
 40
215.9
 41
1.2941176471
 42
50.0
 43
0.0
 44
0.0
 50
0.0
 51
0.0
 71
     0
 72
  2000
 73
     1
 74
     3
 75
     0
 76
     0
 77
     0
 78
     0
281
     0
 65
     1
110
0.0
120
0.0
130
0.0
111
1.0
121
0.0
131
0.0
112
0.0
122
1.0
132
0.0
 79
     0
146
0.0
  0
ENDTAB
  0
TABLE
  2
LTYPE
  5
5
330
0
100
AcDbSymbolTable
 70
     6
  0
LTYPE
  5
14
330
5
100
AcDbSymbolTableRecord
100
AcDbLinetypeTableRecord
  2
ByBlock
 70
     0
  3

 72
    65
 73
     0
 40
0.0
  0
LTYPE
  5
15
330
5
100
AcDbSymbolTableRecord
100
AcDbLinetypeTableRecord
  2
ByLayer
 70
     0
  3

 72
    65
 73
     0
 40
0.0
  0
LTYPE
  5
16
330
5
100
AcDbSymbolTableRecord
100
AcDbLinetypeTableRecord
  2
Continuous
 70
     0
  3
Solid line
 72
    65
 73
     0
 40
0.0
  0
LTYPE
  5
6E
330
5
100
AcDbSymbolTableRecord
100
AcDbLinetypeTableRecord
  2
HIDDEN
 70
     0
  3
Hidden __ __ __ __ __ __ __ __ __ __ __ __ __ __
 72
    65
 73
     2
 40
1.905
 49
1.27
 74
     0
 49
-0.635
 74
     0
  0
LTYPE
  5
6F
330
5
100
AcDbSymbolTableRecord
100
AcDbLinetypeTableRecord
  2
PHANTOM
 70
     0
  3
Phantom ______  __  __  ______  __  __  ______
 72
    65
 73
     6
 40
12.7
 49
6.35
 74
     0
 49
-1.27
 74
     0
 49
1.27
 74
     0
 49
-1.27
 74
     0
 49
1.27
 74
     0
 49
-1.27
 74
     0
  0
LTYPE
  5
70
330
5
100
AcDbSymbolTableRecord
100
AcDbLinetypeTableRecord
  2
CENTER
 70
     0
  3
Center ____ _ ____ _ ____ _ ____ _ ____ _ ____
 72
    65
 73
     4
 40
10.16
 49
6.35
 74
     0
 49
-1.27
 74
     0
 49
1.27
 74
     0
 49
-1.27
 74
     0
  0
LTYPE
  5
71
330
5
100
AcDbSymbolTableRecord
100
AcDbLinetypeTableRecord
  2
CENTERX2
 70
     0
  3
Center (2x) ________  __  ________  __  _____
 72
    65
 73
     4
 40
20.32
 49
12.7
 74
     0
 49
-2.54
 74
     0
 49
2.54
 74
     0
 49
-2.54
 74
     0
  0
LTYPE
  5
72
330
5
100
AcDbSymbolTableRecord
100
AcDbLinetypeTableRecord
  2
DOT2
 70
     0
  3
Dot (.5x) ........................................
 72
    65
 73
     2
 40
0.635
 49
0.0
 74
     0
 49
-0.635
 74
     0
  0
ENDTAB
  0
TABLE
  2
LAYER
  5
2
330
0
100
AcDbSymbolTable
 70
    17
  0
LAYER
  5
10
330
2
100
AcDbSymbolTableRecord
100
AcDbLayerTableRecord
  2
0
 70
     0
 62
     7
  6
Continuous
370
    -3
390
F
  0
LAYER
  5
73
330
2
100
AcDbSymbolTableRecord
100
AcDbLayerTableRecord
  2
FORMAT
 70
     0
 62
     7
  6
Continuous
370
    -3
390
F
  0
LAYER
  5
74
330
2
100
AcDbSymbolTableRecord
100
AcDbLayerTableRecord
  2
YARDIMCI_GEOMETRI
 70
     0
 62
    -6
  6
Continuous
290
     0
370
    -3
390
F
  0
LAYER
  5
75
330
2
100
AcDbSymbolTableRecord
100
AcDbLayerTableRecord
  2
SAYFA_CERCEVESI
 70
     0
 62
     7
  6
Continuous
370
    25
390
F
  0
LAYER
  5
76
330
2
100
AcDbSymbolTableRecord
100
AcDbLayerTableRecord
  2
ANTET
 70
     0
 62
     7
  6
Continuous
370
    -3
390
F
  0
LAYER
  5
77
330
2
100
AcDbSymbolTableRecord
100
AcDbLayerTableRecord
  2
OLCU
 70
     0
 62
   150
  6
Continuous
370
    -3
390
F
  0
LAYER
  5
78
330
2
100
AcDbSymbolTableRecord
100
AcDbLayerTableRecord
  2
METIN
 70
     0
 62
    96
  6
Continuous
370
    -3
390
F
  0
LAYER
  5
79
330
2
100
AcDbSymbolTableRecord
100
AcDbLayerTableRecord
  2
BALON
 70
     0
 62
     5
  6
Continuous
370
    -3
390
F
  0
LAYER
  5
7A
330
2
100
AcDbSymbolTableRecord
100
AcDbLayerTableRecord
  2
VURGU
 70
     0
 62
     7
  6
Continuous
370
    -3
390
F
  0
LAYER
  5
7B
330
2
100
AcDbSymbolTableRecord
100
AcDbLayerTableRecord
  2
SILIK
 70
     0
 62
     7
  6
Continuous
370
    -3
390
F
  0
LAYER
  5
7C
330
2
100
AcDbSymbolTableRecord
100
AcDbLayerTableRecord
  2
MODEL
 70
     0
 62
     7
  6
Continuous
370
    -3
390
F
  0
LAYER
  5
7D
330
2
100
AcDbSymbolTableRecord
100
AcDbLayerTableRecord
  2
DETAYLANDıRMA
 70
     0
 62
   190
  6
Continuous
370
    -3
390
F
  0
LAYER
  5
7E
330
2
100
AcDbSymbolTableRecord
100
AcDbLayerTableRecord
  2
TOLERANS
 70
     0
 62
   230
  6
Continuous
370
    -3
390
F
  0
LAYER
  5
7F
330
2
100
AcDbSymbolTableRecord
100
AcDbLayerTableRecord
  2
MERKEZ_CIZGILERI
 70
     0
 62
    30
  6
Continuous
370
    -3
390
F
  0
LAYER
  5
80
330
2
100
AcDbSymbolTableRecord
100
AcDbLayerTableRecord
  2
KESIT-DETAY_CIZGILERI
 70
     0
 62
     7
  6
Continuous
370
    -3
390
F
  0
LAYER
  5
81
330
2
100
AcDbSymbolTableRecord
100
AcDbLayerTableRecord
  2
\U+041E\U+0421\U+0415\U+0412\U+042B\U+0415
 70
     0
 62
     7
  6
Continuous
370
    -3
390
F
  0
LAYER
  5
82
330
2
100
AcDbSymbolTableRecord
100
AcDbLayerTableRecord
  2
\U+0412\U+041E\U+0414\U+042F\U+041D\U+042B\U+0415_\U+0417\U+041D\U+0410\U+041A\U+0418
 70
     0
 62
    11
  6
Continuous
370
    -3
390
F
  0
ENDTAB
  0
TABLE
  2
STYLE
  5
3
330
0
100
AcDbSymbolTable
 70
     1
  0
STYLE
  5
11
330
3
100
AcDbSymbolTableRecord
100
AcDbTextStyleTableRecord
  2
Standard
 70
     0
 40
0.0
 41
1.0
 50
0.0
 71
     0
 42
3.5
  3
txt
  4

  0
ENDTAB
  0
TABLE
  2
VIEW
  5
6
330
0
100
AcDbSymbolTable
 70
     0
  0
ENDTAB
  0
TABLE
  2
UCS
  5
7
330
0
100
AcDbSymbolTable
 70
     0
  0
ENDTAB
  0
TABLE
  2
APPID
  5
9
330
0
100
AcDbSymbolTable
 70
     1
  0
APPID
  5
12
330
9
100
AcDbSymbolTableRecord
100
AcDbRegAppTableRecord
  2
ACAD
 70
     0
  0
ENDTAB
  0
TABLE
  2
DIMSTYLE
  5
A
330
0
100
AcDbSymbolTable
 70
     1
100
AcDbDimStyleTable
  0
DIMSTYLE
105
27
330
A
100
AcDbSymbolTableRecord
100
AcDbDimStyleTableRecord
  2
ISO-25
 70
     0
 41
2.5
 42
0.625
 43
3.75
 44
1.25
 73
     0
 74
     0
 77
     1
 78
     8
140
2.5
141
2.5
143
0.0393700787
147
0.625
171
     3
172
     1
178
     0
271
     2
272
     2
274
     3
278
    44
283
     0
284
     8
340
11
  0
ENDTAB
  0
TABLE
  2
BLOCK_RECORD
  5
1
330
0
100
AcDbSymbolTable
 70
     3
  0
BLOCK_RECORD
  5
1F
330
1
100
AcDbSymbolTableRecord
100
AcDbBlockTableRecord
  2
*Model_Space
340
22
  0
BLOCK_RECORD
  5
1B
330
1
100
AcDbSymbolTableRecord
100
AcDbBlockTableRecord
  2
*Paper_Space
340
1E
  0
BLOCK_RECORD
  5
23
330
1
100
AcDbSymbolTableRecord
100
AcDbBlockTableRecord
  2
*Paper_Space0
340
26
  0
BLOCK_RECORD
  5
88
330
1
100
AcDbSymbolTableRecord
100
AcDbBlockTableRecord
  2
SW_CENTERMARKSYMBOL_0
340
0
102
{BLKREFS
331
93
102
}
  0
BLOCK_RECORD
  5
B2
330
1
100
AcDbSymbolTableRecord
100
AcDbBlockTableRecord
  2
SW_CENTERMARKSYMBOL_1
340
0
102
{BLKREFS
331
BD
102
}
  0
ENDTAB
  0
ENDSEC
  0
SECTION
  2
BLOCKS
  0
BLOCK
  5
20
330
1F
100
AcDbEntity
  8
0
100
AcDbBlockBegin
  2
*Model_Space
 70
     0
 10
0.0
 20
0.0
 30
0.0
  3
*Model_Space
  1

  0
ENDBLK
  5
21
330
1F
100
AcDbEntity
  8
0
100
AcDbBlockEnd
  0
BLOCK
  5
1C
330
1B
100
AcDbEntity
 67
     1
  8
0
100
AcDbBlockBegin
  2
*Paper_Space
 70
     0
 10
0.0
 20
0.0
 30
0.0
  3
*Paper_Space
  1

  0
ENDBLK
  5
1D
330
1B
100
AcDbEntity
 67
     1
  8
0
100
AcDbBlockEnd
  0
BLOCK
  5
24
330
23
100
AcDbEntity
  8
0
100
AcDbBlockBegin
  2
*Paper_Space0
 70
     0
 10
0.0
 20
0.0
 30
0.0
  3
*Paper_Space0
  1

  0
ENDBLK
  5
25
330
23
100
AcDbEntity
  8
0
100
AcDbBlockEnd
  0
BLOCK
  5
89
330
88
100
AcDbEntity
  8
0
100
AcDbBlockBegin
  2
SW_CENTERMARKSYMBOL_0
 70
     0
 10
0.0
 20
0.0
 30
0.0
  3
SW_CENTERMARKSYMBOL_0
  1

  0
LINE
  5
8B
330
88
100
AcDbEntity
  8
FORMAT
 62
     0
100
AcDbLine
 10
0.0
 20
0.0
 30
0.0
 11
0.0
 21
2.5
 31
0.0
  0
LINE
  5
8C
330
88
100
AcDbEntity
  8
FORMAT
 62
     0
100
AcDbLine
 10
0.0
 20
0.0
 30
0.0
 11
-2.5
 21
0.0
 31
0.0
  0
LINE
  5
8D
330
88
100
AcDbEntity
  8
FORMAT
 62
     0
100
AcDbLine
 10
0.0
 20
0.0
 30
0.0
 11
0.0
 21
-2.5
 31
0.0
  0
LINE
  5
8E
330
88
100
AcDbEntity
  8
FORMAT
 62
     0
100
AcDbLine
 10
0.0
 20
0.0
 30
0.0
 11
2.5
 21
0.0
 31
0.0
  0
LINE
  5
8F
330
88
100
AcDbEntity
  8
FORMAT
 62
     0
100
AcDbLine
 10
0.0
 20
5.0
 30
0.0
 11
0.0
 21
160.0
 31
0.0
  0
LINE
  5
90
330
88
100
AcDbEntity
  8
FORMAT
 62
     0
100
AcDbLine
 10
-5.0
 20
0.0
 30
0.0
 11
-160.0
 21
0.0
 31
0.0
  0
LINE
  5
91
330
88
100
AcDbEntity
  8
FORMAT
 62
     0
100
AcDbLine
 10
0.0
 20
-5.0
 30
0.0
 11
0.0
 21
-160.0
 31
0.0
  0
LINE
  5
92
330
88
100
AcDbEntity
  8
FORMAT
 62
     0
100
AcDbLine
 10
5.0
 20
0.0
 30
0.0
 11
160.0
 21
0.0
 31
0.0
  0
ENDBLK
  5
8A
330
88
100
AcDbEntity
  8
0
100
AcDbBlockEnd
  0
BLOCK
  5
B3
330
B2
100
AcDbEntity
  8
0
100
AcDbBlockBegin
  2
SW_CENTERMARKSYMBOL_1
 70
     0
 10
0.0
 20
0.0
 30
0.0
  3
SW_CENTERMARKSYMBOL_1
  1

  0
LINE
  5
B5
330
B2
100
AcDbEntity
  8
FORMAT
 62
     0
100
AcDbLine
 10
0.0
 20
0.0
 30
0.0
 11
0.0
 21
2.5
 31
0.0
  0
LINE
  5
B6
330
B2
100
AcDbEntity
  8
FORMAT
 62
     0
100
AcDbLine
 10
0.0
 20
0.0
 30
0.0
 11
-2.5
 21
0.0
 31
0.0
  0
LINE
  5
B7
330
B2
100
AcDbEntity
  8
FORMAT
 62
     0
100
AcDbLine
 10
0.0
 20
0.0
 30
0.0
 11
0.0
 21
-2.5
 31
0.0
  0
LINE
  5
B8
330
B2
100
AcDbEntity
  8
FORMAT
 62
     0
100
AcDbLine
 10
0.0
 20
0.0
 30
0.0
 11
2.5
 21
0.0
 31
0.0
  0
LINE
  5
B9
330
B2
100
AcDbEntity
  8
FORMAT
 62
     0
100
AcDbLine
 10
0.0
 20
5.0
 30
0.0
 11
0.0
 21
82.5
 31
0.0
  0
LINE
  5
BA
330
B2
100
AcDbEntity
  8
FORMAT
 62
     0
100
AcDbLine
 10
-5.0
 20
0.0
 30
0.0
 11
-82.5
 21
0.0
 31
0.0
  0
LINE
  5
BB
330
B2
100
AcDbEntity
  8
FORMAT
 62
     0
100
AcDbLine
 10
0.0
 20
-5.0
 30
0.0
 11
0.0
 21
-82.5
 31
0.0
  0
LINE
  5
BC
330
B2
100
AcDbEntity
  8
FORMAT
 62
     0
100
AcDbLine
 10
5.0
 20
0.0
 30
0.0
 11
82.5
 21
0.0
 31
0.0
  0
ENDBLK
  5
B4
330
B2
100
AcDbEntity
  8
0
100
AcDbBlockEnd
  0
ENDSEC
  0
SECTION
  2
ENTITIES
  0
LINE
  5
83
330
1F
100
AcDbEntity
  8
0
  6
Continuous
 62
     7
370
    25
100
AcDbLine
 10
188.673602957
 20
25.6689746654
 30
0.0
 11
355.924427289
 21
25.6689746654
 31
0.0
  0
LINE
  5
84
330
1F
100
AcDbEntity
  8
0
  6
Continuous
 62
     7
370
    25
100
AcDbLine
 10
355.924427289
 20
185.6689746654
 30
0.0
 11
188.6634947335
 21
185.6689746654
 31
0.0
  0
CIRCLE
  5
85
330
1F
100
AcDbEntity
  8
0
  6
Continuous
 62
     7
370
    25
100
AcDbCircle
 10
52.924427289
 20
105.6689746654
 30
0.0
 40
128.9
  0
CIRCLE
  5
86
330
1F
100
AcDbEntity
  8
0
  6
Continuous
 62
     7
370
    25
100
AcDbCircle
 10
52.924427289
 20
105.6689746654
 30
0.0
 40
157.5
  0
LINE
  5
87
330
1F
100
AcDbEntity
  8
0
  6
Continuous
 62
     7
370
    25
100
AcDbLine
 10
355.924427289
 20
185.6689746654
 30
0.0
 11
355.924427289
 21
25.6689746654
 31
0.0
  0
INSERT
  5
93
330
1F
100
AcDbEntity
  8
FORMAT
100
AcDbBlockReference
  2
SW_CENTERMARKSYMBOL_0
 10
52.924427289
 20
105.6689746654
 30
0.0
  0
LINE
  5
94
330
1F
100
AcDbEntity
  8
0
  6
Continuous
 62
     7
370
    25
100
AcDbLine
 10
-104.575572711
 20
-217.1511738558
 30
0.0
 11
-104.575572711
 21
-929.1511738558
 31
0.0
  0
LINE
  5
95
330
1F
100
AcDbEntity
  8
0
  6
Continuous
 62
     7
370
    25
100
AcDbLine
 10
210.424427289
 20
-493.1896544041
 30
0.0
 11
210.424427289
 21
-217.1511738558
 31
0.0
  0
LINE
  5
96
330
1F
100
AcDbEntity
  8
0
  6
Continuous
 62
     7
370
    25
100
AcDbLine
 10
210.424427289
 20
-929.1511738558
 30
0.0
 11
210.424427289
 21
-653.1511738558
 31
0.0
  0
LINE
  5
97
330
1F
100
AcDbEntity
  8
0
  6
Continuous
 62
     7
370
    25
100
AcDbLine
 10
210.424427289
 20
-653.1511738558
 30
0.0
 11
355.924427289
 21
-653.1511738558
 31
0.0
  0
LINE
  5
98
330
1F
100
AcDbEntity
  8
0
  6
Continuous
 62
     7
370
    25
100
AcDbLine
 10
355.924427289
 20
-493.1511738558
 30
0.0
 11
210.4047529181
 21
-493.1511738558
 31
0.0
  0
SPLINE
  5
99
330
1F
100
AcDbEntity
  8
0
  6
Continuous
 62
     7
370
    25
100
AcDbSpline
210
0.0
220
0.0
230
1.0
 70
     8
 71
     3
 72
    47
 73
    43
 74
     0
 42
0.000000001
 43
0.00000001
 40
0.0
 40
0.0
 40
0.0
 40
0.0
 40
0.0042060975969674
 40
0.0304078714850415
 40
0.0537655328713724
 40
0.0771239691195449
 40
0.1011263957895025
 40
0.1251300921238009
 40
0.1491847500614938
 40
0.173240661277724
 40
0.1978738624451767
 40
0.222508010179045
 40
0.2489719341193851
 40
0.2754361407814792
 40
0.3025929227255805
 40
0.3297486189634823
 40
0.3574818041408948
 40
0.3852123034366066
 40
0.4139272015297312
 40
0.4426383888376574
 40
0.4676523090736329
 40
0.4926650826563099
 40
0.5185816857997936
 40
0.544499077805349
 40
0.5670880930463728
 40
0.5896784169239078
 40
0.6128474506409285
 40
0.6360180443420465
 40
0.6601603640185646
 40
0.6843039777949391
 40
0.7089992494488361
 40
0.7336950489733056
 40
0.7608473420457393
 40
0.787999090224438
 40
0.8159214159464431
 40
0.8438419285309412
 40
0.8711607232916724
 40
0.8984773347132482
 40
0.9267727629108137
 40
0.9550661099920167
 40
0.977460694838341
 40
1.0
 40
1.0
 40
1.0
 40
1.0
 10
210.4047413172534
 20
-493.1896544041005
 30
0.0
 10
210.4108305800002
 20
-493.1776330067413
 30
0.0
 10
210.4548527441974
 20
-493.0907246320442
 30
0.0
 10
210.2721073911048
 20
-493.4511788300544
 30
0.0
 10
209.8681801897608
 20
-494.2499696444152
 30
0.0
 10
209.2404713343323
 20
-495.5047797380902
 30
0.0
 10
208.4055484527672
 20
-497.1964886289742
 30
0.0
 10
207.3713158886836
 20
-499.333997296883
 30
0.0
 10
206.1670764350193
 20
-501.8836223676468
 30
0.0
 10
204.8094701839943
 20
-504.8470484035196
 30
0.0
 10
203.3221156837293
 20
-508.2149979808298
 30
0.0
 10
201.6958917658706
 20
-512.0669327687131
 30
0.0
 10
199.96918383384
 20
-516.388981658177
 30
0.0
 10
198.1652426614289
 20
-521.227900500645
 30
0.0
 10
196.3690522392399
 20
-526.4718877261176
 30
0.0
 10
194.6187474947344
 20
-532.1444574668751
 30
0.0
 10
192.9848683290421
 20
-538.1846323926432
 30
0.0
 10
191.506271139515
 20
-544.6405436046239
 30
0.0
 10
190.2629364271198
 20
-551.4449958562487
 30
0.0
 10
189.3546677887115
 20
-558.2468761272648
 30
0.0
 10
188.7978045490094
 20
-564.8797545139314
 30
0.0
 10
188.5529890979766
 20
-571.3483097449795
 30
0.0
 10
188.6252038065602
 20
-577.9111056376537
 30
0.0
 10
188.998954853882
 20
-584.2252138190312
 30
0.0
 10
189.6199671442918
 20
-590.1676774230438
 30
0.0
 10
190.4294781759873
 20
-595.7671858993882
 30
0.0
 10
191.4425304426489
 20
-601.2654020409061
 30
0.0
 10
192.6493075351464
 20
-606.7060945619526
 30
0.0
 10
194.0189818244037
 20
-612.0081238047593
 30
0.0
 10
195.5321252138419
 20
-617.1789778235973
 30
0.0
 10
197.1367480443811
 20
-622.1185728791336
 30
0.0
 10
198.8518007118863
 20
-626.9571072779197
 30
0.0
 10
200.6289446169535
 20
-631.6003281282317
 30
0.0
 10
202.4395462996567
 20
-636.0273560906098
 30
0.0
 10
204.1784612238679
 20
-640.0502608489871
 30
0.0
 10
205.7862766986795
 20
-643.601724577795
 30
0.0
 10
207.2035302130224
 20
-646.620822731228
 30
0.0
 10
208.4138987692635
 20
-649.1244704934522
 30
0.0
 10
209.379799206789
 20
-651.0795152329705
 30
0.0
 10
210.0105656405451
 20
-652.3344062453267
 30
0.0
 10
210.3633450765492
 20
-653.0310725260065
 30
0.0
 10
210.4040228806408
 20
-653.1110542125263
 30
0.0
 10
210.4244272889741
 20
-653.1511738558399
 30
0.0
  0
LINE
  5
9A
330
1F
100
AcDbEntity
  8
0
  6
Continuous
 62
     7
370
    25
100
AcDbLine
 10
210.424427289
 20
-929.1511738558
 30
0.0
 11
-104.575572711
 21
-929.1511738558
 31
0.0
  0
LINE
  5
9B
330
1F
100
AcDbEntity
  8
0
  6
Continuous
 62
     7
370
    25
100
AcDbLine
 10
210.424427289
 20
-217.1511738558
 30
0.0
 11
-104.575572711
 21
-217.1511738558
 31
0.0
  0
LINE
  5
9C
330
1F
100
AcDbEntity
  8
0
  6
Continuous
 62
     7
370
    25
100
AcDbLine
 10
355.924427289
 20
-493.1511738558
 30
0.0
 11
355.924427289
 21
-653.1511738558
 31
0.0
  0
LINE
  5
9D
330
1F
100
AcDbEntity
  8
0
  6
Continuous
 62
     7
370
    25
100
AcDbLine
 10
210.424427289
 20
885.5310273767
 30
0.0
 11
210.424427289
 21
1161.5310273767
 31
0.0
  0
LINE
  5
9E
330
1F
100
AcDbEntity
  8
0
  6
Continuous
 62
     7
370
    25
100
AcDbLine
 10
210.424427289
 20
449.5310273767
 30
0.0
 11
210.424427289
 21
725.5678411117
 31
0.0
  0
LINE
  5
9F
330
1F
100
AcDbEntity
  8
0
  6
Continuous
 62
     7
370
    25
100
AcDbLine
 10
-104.575572711
 20
1161.5310273767
 30
0.0
 11
-104.575572711
 21
449.5310273767
 31
0.0
  0
LINE
  5
A0
330
1F
100
AcDbEntity
  8
0
  6
Continuous
 62
     7
370
    25
100
AcDbLine
 10
210.405754206
 20
725.5310273767
 30
0.0
 11
355.924427289
 21
725.5310273767
 31
0.0
  0
LINE
  5
A1
330
1F
100
AcDbEntity
  8
0
  6
Continuous
 62
     7
370
    25
100
AcDbLine
 10
355.924427289
 20
885.5310273767
 30
0.0
 11
210.424427289
 21
885.5310273767
 31
0.0
  0
SPLINE
  5
A2
330
1F
100
AcDbEntity
  8
0
  6
Continuous
 62
     7
370
    25
100
AcDbSpline
210
0.0
220
0.0
230
1.0
 70
     8
 71
     3
 72
    46
 73
    42
 74
     0
 42
0.000000001
 43
0.00000001
 40
0.0
 40
0.0
 40
0.0
 40
0.0
 40
0.0241709292544093
 40
0.0485247612775006
 40
0.0734460740722995
 40
0.098557728388898
 40
0.1227259762560992
 40
0.1470519720679098
 40
0.1718503091389751
 40
0.1968018399354476
 40
0.2224924888002234
 40
0.2483394571290204
 40
0.2746668778101983
 40
0.3011581798851576
 40
0.3288055458370671
 40
0.3566550966063736
 40
0.3851823060472831
 40
0.4139663861683706
 40
0.4398338460237078
 40
0.4659239927307727
 40
0.4927545038547537
 40
0.5198542878943586
 40
0.5426188902746502
 40
0.5655427110520979
 40
0.5889471392328451
 40
0.612507567052084
 40
0.6358796798450417
 40
0.6593873266607341
 40
0.6832957532673724
 40
0.7073335702134366
 40
0.7337407599262458
 40
0.7603133517593695
 40
0.7874073044517155
 40
0.814685125625916
 40
0.842265136369084
 40
0.8700588944393018
 40
0.8985683861706478
 40
0.9273450215607157
 40
0.9525733057065889
 40
0.9780041140742018
 40
1.0
 40
1.0
 40
1.0
 40
1.0
 10
210.424427288974
 20
885.5310273767097
 30
0.0
 10
210.4009799499909
 20
885.4849165192047
 30
0.0
 10
210.3539078447038
 20
885.3923458807662
 30
0.0
 10
209.9721728838514
 20
884.6384088330157
 30
0.0
 10
209.3617332390767
 20
883.4214206659981
 30
0.0
 10
208.5189850253448
 20
881.7173487115075
 30
0.0
 10
207.4815615059963
 20
879.5785588098909
 30
0.0
 10
206.2730648884595
 20
877.026114915955
 30
0.0
 10
204.899631486445
 20
874.0360935279003
 30
0.0
 10
203.3750214104124
 20
870.5906463565257
 30
0.0
 10
201.7333932304151
 20
866.7073327680404
 30
0.0
 10
200.0010364333545
 20
862.3738544897851
 30
0.0
 10
198.228921113024
 20
857.6296734192431
 30
0.0
 10
196.4380947030215
 20
852.4210745394756
 30
0.0
 10
194.6845943734517
 20
846.7663094214522
 30
0.0
 10
193.01724143772
 20
840.6344605424969
 30
0.0
 10
191.5185446613252
 20
834.1064851431796
 30
0.0
 10
190.3023320726521
 20
827.4606986576825
 30
0.0
 10
189.4007595630003
 20
820.8095021945701
 30
0.0
 10
188.8142384161699
 20
814.1813049655972
 30
0.0
 10
188.5477482716357
 20
807.3654850348078
 30
0.0
 10
188.6260895937855
 20
800.8147317229577
 30
0.0
 10
188.9897278853939
 20
794.6413866353552
 30
0.0
 10
189.57474701787
 20
788.8583701680816
 30
0.0
 10
190.3932139211101
 20
783.1260227358264
 30
0.0
 10
191.4220214189345
 20
777.5111546295379
 30
0.0
 10
192.6270837472672
 20
772.0720120483704
 30
0.0
 10
193.9809155726164
 20
766.8151762865374
 30
0.0
 10
195.4589845805993
 20
761.7437333550469
 30
0.0
 10
197.0777082815611
 20
756.733616829208
 30
0.0
 10
198.8032283493479
 20
751.8545109325773
 30
0.0
 10
200.6046282933306
 20
747.1444565315641
 30
0.0
 10
202.3878789823823
 20
742.7785008366367
 30
0.0
 10
204.1088957819663
 20
738.790412823945
 30
0.0
 10
205.7138176358234
 20
735.2370903232894
 30
0.0
 10
207.164844879036
 20
732.1421233742104
 30
0.0
 10
208.4100645049048
 20
729.5647858510678
 30
0.0
 10
209.3591145878753
 20
727.645494277983
 30
0.0
 10
209.9994902312299
 20
726.3693947848468
 30
0.0
 10
210.3684299938617
 20
725.6411625319888
 30
0.0
 10
210.39392061117
 20
725.5910723080967
 30
0.0
 10
210.4057428289916
 20
725.5678411116758
 30
0.0
  0
LINE
  5
A3
330
1F
100
AcDbEntity
  8
0
  6
Continuous
 62
     7
370
    25
100
AcDbLine
 10
-104.575572711
 20
1161.5310273767
 30
0.0
 11
210.424427289
 21
1161.5310273767
 31
0.0
  0
LINE
  5
A4
330
1F
100
AcDbEntity
  8
0
  6
Continuous
 62
     7
370
    25
100
AcDbLine
 10
-104.575572711
 20
449.5310273767
 30
0.0
 11
210.424427289
 21
449.5310273767
 31
0.0
  0
LINE
  5
A5
330
1F
100
AcDbEntity
  8
0
  6
Continuous
 62
     7
370
    25
100
AcDbLine
 10
355.924427289
 20
885.5310273767
 30
0.0
 11
355.924427289
 21
725.5310273767
 31
0.0
  0
LINE
  5
A6
330
1F
100
AcDbEntity
  8
0
  6
Continuous
 62
     7
370
    25
100
AcDbLine
 10
543.6409629951
 20
-51.8310253346
 30
0.0
 11
1255.6409629951
 21
-51.8310253346
 31
0.0
  0
LINE
  5
A7
330
1F
100
AcDbEntity
  8
0
  6
Continuous
 62
     7
370
    25
100
AcDbLine
 10
1255.6409629951
 20
263.1689746654
 30
0.0
 11
543.6409629951
 21
263.1689746654
 31
0.0
  0
LINE
  5
A8
330
1F
100
AcDbEntity
  8
0
  6
Continuous
 62
     7
370
    25
100
AcDbLine
 10
1255.6409629951
 20
263.1689746654
 30
0.0
 11
1255.6409629951
 21
-51.8310253346
 31
0.0
  0
LINE
  5
A9
330
1F
100
AcDbEntity
  8
0
  6
Continuous
 62
     7
370
    25
100
AcDbLine
 10
543.6409629951
 20
263.1689746654
 30
0.0
 11
543.6409629951
 21
-51.8310253346
 31
0.0
  0
LINE
  5
AA
330
1F
100
AcDbEntity
  8
0
  6
Continuous
 62
     7
370
    25
100
AcDbLine
 10
-329.7240506112
 20
263.1689746654
 30
0.0
 11
-1041.7240506112
 21
263.1689746654
 31
0.0
  0
LINE
  5
AB
330
1F
100
AcDbEntity
  8
0
  6
Continuous
 62
     7
370
    25
100
AcDbLine
 10
-1041.7240506112
 20
-51.8310253346
 30
0.0
 11
-329.7240506112
 21
-51.8310253346
 31
0.0
  0
CIRCLE
  5
AC
330
1F
100
AcDbEntity
  8
0
  6
Continuous
 62
     7
370
    25
100
AcDbCircle
 10
-685.7240506112
 20
105.6689746654
 30
0.0
 40
65.39999999999998
  0
CIRCLE
  5
AD
330
1F
100
AcDbEntity
  8
0
  6
Continuous
 62
     7
370
    25
100
AcDbCircle
 10
-685.7240506112
 20
105.6689746654
 30
0.0
 40
80.0
  0
LINE
  5
AE
330
1F
100
AcDbEntity
  8
0
  6
Continuous
 62
     7
370
    25
100
AcDbLine
 10
-1041.7240506112
 20
105.6689746654
 30
0.0
 11
-1041.7240506112
 21
263.1689746654
 31
0.0
  0
LINE
  5
AF
330
1F
100
AcDbEntity
  8
0
  6
Continuous
 62
     7
370
    25
100
AcDbLine
 10
-1041.7240506112
 20
-51.8310253346
 30
0.0
 11
-1041.7240506112
 21
105.6689746654
 31
0.0
  0
LINE
  5
B0
330
1F
100
AcDbEntity
  8
0
  6
Continuous
 62
     7
370
    25
100
AcDbLine
 10
-329.7240506112
 20
105.6689746654
 30
0.0
 11
-329.7240506112
 21
263.1689746654
 31
0.0
  0
LINE
  5
B1
330
1F
100
AcDbEntity
  8
0
  6
Continuous
 62
     7
370
    25
100
AcDbLine
 10
-329.7240506112
 20
-51.8310253346
 30
0.0
 11
-329.7240506112
 21
105.6689746654
 31
0.0
  0
INSERT
  5
BD
330
1F
100
AcDbEntity
  8
FORMAT
100
AcDbBlockReference
  2
SW_CENTERMARKSYMBOL_1
 10
-685.7240506112
 20
105.6689746654
 30
0.0
  0
LINE
  5
BE
330
1F
100
AcDbEntity
  8
0
  6
Continuous
 62
     7
370
    25
100
AcDbLine
 10
1198.3446200225
 20
-561.1391177986
 30
0.0
 11
1105.3903082926
 21
-507.4777358516
 31
0.0
  0
LINE
  5
BF
330
1F
100
AcDbEntity
  8
0
  6
Continuous
 62
     7
370
    25
100
AcDbLine
 10
945.3773044576
 20
-415.1041949637
 30
0.0
 11
694.8845918177
 21
-270.4978299897
 31
0.0
  0
LINE
  5
C0
330
1F
100
AcDbEntity
  8
0
  6
Continuous
 62
     7
370
    25
100
AcDbLine
 10
537.3973914275
 20
-543.3032216397
 30
0.0
 11
1040.8574196323
 21
-833.9445094485
 31
0.0
  0
LINE
  5
C1
330
1F
100
AcDbEntity
  8
0
  6
Continuous
 62
     7
370
    25
100
AcDbLine
 10
1011.8030504343
 20
-561.504509821
 30
0.0
 11
1122.12110973
 21
-497.8192497685
 31
0.0
  0
LINE
  5
C2
330
1F
100
AcDbEntity
  8
0
  6
Continuous
 62
     7
370
    25
100
AcDbLine
 10
1042.1276111191
 20
-359.2514317876
 30
0.0
 11
931.809560943
 21
-422.9366865755
 31
0.0
  0
SPLINE
  5
C3
330
1F
100
AcDbEntity
  8
0
  6
Continuous
 62
     7
370
    25
100
AcDbSpline
210
0.0
220
0.0
230
1.0
 70
     8
 71
     3
 72
    37
 73
    33
 74
     0
 42
0.000000001
 43
0.00000001
 40
0.0
 40
0.0
 40
0.0
 40
0.0
 40
0.0322166508052931
 40
0.0650545357137961
 40
0.0978935997832707
 40
0.1313641126355437
 40
0.1635771895064444
 40
0.1963143131261154
 40
0.2290532644895766
 40
0.2623103538743726
 40
0.2965525898565451
 40
0.3313231349464021
 40
0.3660940467337115
 40
0.4014034475160919
 40
0.4382537284955182
 40
0.4753734950868401
 40
0.5133964910310108
 40
0.5517618616070507
 40
0.586239763246985
 40
0.6215086024108974
 40
0.6567754620929908
 40
0.6928958888301441
 40
0.7232380919737574
 40
0.7541117321764853
 40
0.7849872801773884
 40
0.8163902133408815
 40
0.8475421474890187
 40
0.8791409689397314
 40
0.9107414055554408
 40
0.9427806352648916
 40
0.9779779253968591
 40
1.0
 40
1.0
 40
1.0
 40
1.0
 10
922.6717812669746
 20
-455.2727064401994
 30
0.0
 10
922.6878048141784
 20
-456.9848872083496
 30
0.0
 10
922.7201608908587
 20
-460.442264749028
 30
0.0
 10
922.9846288866289
 20
-465.9861700233625
 30
0.0
 10
923.4143394960745
 20
-471.7973810287573
 30
0.0
 10
924.021127607802
 20
-477.7505344560952
 30
0.0
 10
924.8023514923107
 20
-483.8164392576152
 30
0.0
 10
925.7536518769243
 20
-489.9118770976567
 30
0.0
 10
926.8975164892532
 20
-496.1029647900578
 30
0.0
 10
928.2515592603921
 20
-502.3773759466306
 30
0.0
 10
929.8415956735696
 20
-508.7245369069009
 30
0.0
 10
931.6820670755036
 20
-515.0655287998982
 30
0.0
 10
933.7846732697609
 20
-521.3266331231077
 30
0.0
 10
936.1942321867956
 20
-527.5179783179285
 30
0.0
 10
938.9528292136937
 20
-533.593097065604
 30
0.0
 10
942.1097171086043
 20
-539.4978559786873
 30
0.0
 10
945.6659170863755
 20
-545.0903671161013
 30
0.0
 10
949.5053380823083
 20
-550.0968743575049
 30
0.0
 10
953.5891534483756
 20
-554.4914219149161
 30
0.0
 10
957.8650932949427
 20
-558.2528043659142
 30
0.0
 10
962.4963519940138
 20
-561.5103399621464
 30
0.0
 10
967.1616031373338
 20
-564.0314392052398
 30
0.0
 10
971.7989342075159
 20
-565.9039943634099
 30
0.0
 10
976.3029003686053
 20
-567.1977547310709
 30
0.0
 10
980.9347709517033
 20
-568.024788787902
 30
0.0
 10
985.6166270101485
 20
-568.3723107966598
 30
0.0
 10
990.3282395103518
 20
-568.2520108561747
 30
0.0
 10
995.0018896810546
 20
-567.6737113562335
 30
0.0
 10
999.634753028405
 20
-566.6524258527271
 30
0.0
 10
1004.301046461452
 20
-565.1327610338068
 30
0.0
 10
1008.391813998933
 20
-563.4217761158761
 30
0.0
 10
1010.831751200698
 20
-561.996496986091
 30
0.0
 10
1011.770812291869
 20
-561.4479483702206
 30
0.0
  0
SPLINE
  5
C4
330
1F
100
AcDbEntity
  8
0
  6
Continuous
 62
     7
370
    25
100
AcDbSpline
210
0.0
220
0.0
230
1.0
 70
     8
 71
     3
 72
    17
 73
    13
 74
     0
 42
0.000000001
 43
0.00000001
 40
0.0
 40
0.0
 40
0.0
 40
0.0
 40
0.0420315960846697
 40
0.1522663068628018
 40
0.262496214143463
 40
0.3747151939741067
 40
0.4836626986276931
 40
0.5934853678191852
 40
0.7062378541942721
 40
0.8200778346816437
 40
0.9100395193647598
 40
1.0
 40
1.0
 40
1.0
 40
1.0
 10
931.8423823083033
 20
-422.9942576824182
 30
0.0
 10
931.5686256513435
 20
-423.1328249017806
 30
0.0
 10
930.5768975463625
 20
-423.6348072367382
 30
0.0
 10
929.1428509832647
 20
-425.0285596568088
 30
0.0
 10
927.5129911242535
 20
-427.2008264382561
 30
0.0
 10
926.1487075177417
 20
-429.9363770926774
 30
0.0
 10
925.0128901880526
 20
-433.1968751955143
 30
0.0
 10
924.100027053878
 20
-436.9946310722599
 30
0.0
 10
923.3986843128888
 20
-441.3801474360965
 30
0.0
 10
922.9567442027666
 20
-446.002795108415
 30
0.0
 10
922.7134497045998
 20
-450.6516420557547
 30
0.0
 10
922.6856706842168
 20
-453.732358517486
 30
0.0
 10
922.6717812669746
 20
-455.2727064401994
 30
0.0
  0
LWPOLYLINE
  5
C5
330
1F
100
AcDbEntity
  8
0
  6
Continuous
 62
     7
370
    25
100
AcDbPolyline
 90
      134
 70
   128
 43
0.0
 10
727.5103096595
 20
-342.6083870087
 10
727.3860554112
 20
-336.6068119779
 10
727.0135699263
 20
-330.7620897092
 10
726.3936843655
 20
-325.0872620633
 10
725.5277819359
 20
-319.5949917997
 10
724.4177948043
 20
-314.297534321
 10
723.0661997861
 20
-309.2067103261
 10
721.4760128183
 20
-304.3338794341
 10
719.6507822299
 20
-299.6899148361
 10
717.5945808239
 20
-295.285179033
 10
715.3119967897
 20
-291.1295007127
 10
712.8081234648
 20
-287.2321528185
 10
710.0885479698
 20
-283.6018318575
 10
707.1593387409
 20
-280.2466384954
 10
704.0270319894
 20
-277.1740594804
 10
700.6986171163
 20
-274.3909509379
 10
697.1815211168
 20
-271.9035230711
 10
693.4835920073
 20
-269.7173263044
 10
689.6130813136
 20
-267.8372388975
 10
685.5786256586
 20
-266.2674560607
 10
681.3892274903
 20
-265.0114805933
 10
677.0542349942
 20
-264.0721150676
 10
672.5833212337
 20
-263.4514555754
 10
667.9864625657
 20
-263.1508870508
 10
663.2739163791
 20
-263.1710801797
 10
658.4561982074
 20
-263.5119899033
 10
653.5440582636
 20
-264.1728555187
 10
648.5484574527
 20
-265.1522023763
 10
643.4805429134
 20
-266.4478451703
 10
638.3516231448
 20
-268.056892815
 10
633.1731427725
 20
-269.975754896
 10
627.9566570109
 20
-272.2001496817
 10
622.7138058797
 20
-274.7251136774
 10
617.4562882298
 20
-277.5450127012
 10
612.1958356388
 20
-280.6535544557
 10
606.9441862334
 20
-284.0438025687
 10
601.7130584971
 20
-287.7081920711
 10
596.5141251212
 20
-291.638546277
 10
591.358986959
 20
-295.8260950293
 10
586.2591471395
 20
-300.2614942694
 10
581.2259853996
 20
-304.9348468871
 10
576.2707326911
 20
-309.8357248054
 10
571.4044461205
 20
-314.9531922493
 10
566.6379842759
 20
-320.2758301479
 10
561.9819829975
 20
-325.7917616148
 10
557.4468316447
 20
-331.48867845
 10
553.0426499136
 20
-337.3538686044
 10
548.7792652558
 20
-343.3742445454
 10
544.6661909495
 20
-349.5363724601
 10
540.7126048717
 20
-355.8265022316
 10
536.927329019
 20
-362.2305981209
 10
533.3188098219
 20
-368.7343700858
 10
529.8950992978
 20
-375.323305668
 10
526.6638370836
 20
-381.9827023757
 10
523.6322333887
 20
-388.697700491
 10
520.8070529066
 20
-395.4533162273
 10
518.1945997194
 20
-402.2344751643
 10
515.8007032319
 20
-409.0260458848
 10
513.630705163
 20
-415.812873739
 10
511.6894476272
 20
-422.5798146599
 10
509.9812623289
 20
-429.3117689565
 10
508.5099608976
 20
-435.9937150064
 10
507.278826382
 20
-442.610742775
 10
506.2906059247
 20
-449.1480870862
 10
505.5475046318
 20
-455.5911605683
 10
505.051180653
 20
-461.9255862052
 10
504.8027414812
 20
-468.1372294163
 10
504.8027414812
 20
-474.2122295967
 10
505.051180653
 20
-480.1370310455
 10
505.5475046318
 20
-485.898413214
 10
506.2906059247
 20
-491.4835202058
 10
507.278826382
 20
-496.8798894632
 10
508.5099608976
 20
-502.0754795763
 10
509.9812623289
 20
-507.058697152
 10
511.6894476272
 20
-511.8184226833
 10
513.630705163
 20
-516.3440353614
 10
515.8007032319
 20
-520.6254367748
 10
518.1945997194
 20
-524.6530734428
 10
520.8070529066
 20
-528.4179581331
 10
523.6322333887
 20
-531.9116899158
 10
526.6638370836
 20
-535.1264729092
 10
529.8950992978
 20
-538.0551336753
 10
533.3188098219
 20
-540.6911372269
 10
536.927329019
 20
-543.0286016092
 10
540.7126048717
 20
-545.0623110252
 10
544.6661909495
 20
-546.7877274741
 10
548.7792652558
 20
-548.2010008769
 10
553.0426499136
 20
-549.2989776681
 10
557.4468316447
 20
-550.0792078322
 10
561.9819829975
 20
-550.5399503706
 10
566.6379842759
 20
-550.6801771866
 10
571.4044461205
 20
-550.4995753792
 10
576.2707326911
 20
-549.9985479417
 10
581.2259853996
 20
-549.1782128622
 10
586.2591471395
 20
-548.0404006291
 10
591.358986959
 20
-546.5876501464
 10
596.5141251212
 20
-544.8232030684
 10
601.7130584971
 20
-542.7509965666
 10
606.9441862334
 20
-540.3756545439
 10
612.1958356388
 20
-537.7024773172
 10
617.4562882298
 20
-534.7374297901
 10
622.7138058797
 20
-531.4871281431
 10
627.9566570109
 20
-527.9588250702
 10
633.1731427725
 20
-524.160393595
 10
638.3516231448
 20
-520.1003095035
 10
643.4805429134
 20
-515.7876324309
 10
648.5484574527
 20
-511.2319856461
 10
653.5440582636
 20
-506.4435345784
 10
658.4561982074
 20
-501.4329641346
 10
663.2739163791
 20
-496.2114548565
 10
667.9864625657
 20
-490.7906579732
 10
672.5833212337
 20
-485.182669402
 10
677.0542349942
 20
-479.4000027584
 10
681.3892274903
 20
-473.4555614328
 10
685.5786256586
 20
-467.3626097982
 10
689.6130813136
 20
-461.1347436121
 10
693.4835920073
 20
-454.7858596794
 10
697.1815211168
 20
-448.3301248425
 10
700.6986171163
 20
-441.7819443703
 10
704.0270319894
 20
-435.1559298138
 10
707.1593387409
 20
-428.4668664025
 10
710.0885479698
 20
-421.7296800525
 10
712.8081234648
 20
-414.9594040608
 10
715.3119967897
 20
-408.1711455605
 10
717.5945808239
 20
-401.3800518107
 10
719.6507822299
 20
-394.6012763971
 10
721.4760128183
 20
-387.8499454182
 10
723.0661997861
 20
-381.1411237333
 10
724.4177948043
 20
-374.4897813471
 10
725.5277819359
 20
-367.910760005
 10
726.3936843655
 20
-361.4187400764
 10
727.0135699263
 20
-355.0282077962
 10
727.3860554112
 20
-348.7534229408
 10
727.5103096595
 20
-342.6083870087
  0
LWPOLYLINE
  5
C6
330
1F
100
AcDbEntity
  8
0
  6
Continuous
 62
     7
370
    25
100
AcDbPolyline
 90
       18
 70
   128
 43
0.0
 10
1230.9703378643
 20
-633.2496748175
 10
1230.8460836161
 20
-627.2480997868
 10
1230.4735981312
 20
-621.4033775181
 10
1229.8537125703
 20
-615.7285498722
 10
1228.9878101407
 20
-610.2362796086
 10
1227.8778230091
 20
-604.9388221299
 10
1226.5262279909
 20
-599.847998135
 10
1224.9360410232
 20
-594.975167243
 10
1223.1108104347
 20
-590.331202645
 10
1221.0546090287
 20
-585.9264668419
 10
1218.7720249945
 20
-581.7707885216
 10
1216.2681516697
 20
-577.8734406274
 10
1213.5485761746
 20
-574.2431196664
 10
1210.6193669457
 20
-570.8879263043
 10
1207.4870601942
 20
-567.8153472893
 10
1204.1586453211
 20
-565.0322387467
 10
1200.6415493216
 20
-562.54481088
 10
1198.3446200225
 20
-561.1391177986
  0
LWPOLYLINE
  5
C7
330
1F
100
AcDbEntity
  8
0
  6
Continuous
 62
     7
370
    25
100
AcDbPolyline
 90
       51
 70
   128
 43
0.0
 10
1040.8574196323
 20
-833.9445094485
 10
1044.1726330765
 20
-835.7035988341
 10
1048.1262191543
 20
-837.4290152829
 10
1052.2392934606
 20
-838.8422886858
 10
1056.5026781185
 20
-839.940265477
 10
1060.9068598495
 20
-840.7204956411
 10
1065.4420112023
 20
-841.1812381795
 10
1070.0980124807
 20
-841.3214649955
 10
1074.8644743253
 20
-841.140863188
 10
1079.7307608959
 20
-840.6398357505
 10
1084.6860136044
 20
-839.8195006711
 10
1089.7191753443
 20
-838.681688438
 10
1094.8190151638
 20
-837.2289379553
 10
1099.974153326
 20
-835.4644908773
 10
1105.1730867019
 20
-833.3922843755
 10
1110.4042144382
 20
-831.0169423528
 10
1115.6558638436
 20
-828.3437651261
 10
1120.9163164346
 20
-825.378717599
 10
1126.1738340845
 20
-822.128415952
 10
1131.4166852158
 20
-818.600112879
 10
1136.6331709773
 20
-814.8016814039
 10
1141.8116513497
 20
-810.7415973124
 10
1146.9405711183
 20
-806.4289202398
 10
1152.0084856575
 20
-801.873273455
 10
1157.0040864685
 20
-797.0848223873
 10
1161.9162264123
 20
-792.0742519435
 10
1166.733944584
 20
-786.8527426654
 10
1171.4464907705
 20
-781.4319457821
 10
1176.0433494386
 20
-775.8239572109
 10
1180.5142631991
 20
-770.0412905673
 10
1184.8492556951
 20
-764.0968492417
 10
1189.0386538634
 20
-758.0038976071
 10
1193.0731095184
 20
-751.776031421
 10
1196.9436202121
 20
-745.4271474883
 10
1200.6415493216
 20
-738.9714126514
 10
1204.1586453211
 20
-732.4232321792
 10
1207.4870601942
 20
-725.7972176227
 10
1210.6193669457
 20
-719.1081542114
 10
1213.5485761746
 20
-712.3709678614
 10
1216.2681516697
 20
-705.6006918696
 10
1218.7720249945
 20
-698.8124333694
 10
1221.0546090287
 20
-692.0213396196
 10
1223.1108104347
 20
-685.2425642059
 10
1224.9360410232
 20
-678.491233227
 10
1226.5262279909
 20
-671.7824115422
 10
1227.8778230091
 20
-665.1310691559
 10
1228.9878101407
 20
-658.5520478139
 10
1229.8537125703
 20
-652.0600278853
 10
1230.4735981312
 20
-645.6694956051
 10
1230.8460836161
 20
-639.3947107496
 10
1230.9703378643
 20
-633.2496748175
  0
LWPOLYLINE
  5
C8
330
1F
100
AcDbEntity
  8
0
  6
Continuous
 62
     7
370
    25
100
AcDbPolyline
 90
      121
 70
   128
 43
0.0
 10
707.2870557176
 20
-354.2830230077
 10
707.1621432045
 20
-348.8466636091
 10
706.7877480417
 20
-343.5694258114
 10
706.1648964203
 20
-338.4657741568
 10
705.2952955334
 20
-333.5496973996
 10
704.1813288965
 20
-328.8346701646
 10
702.8260498148
 20
-324.3336160136
 10
701.2331730139
 20
-320.0588720233
 10
699.4070644585
 20
-316.0221549696
 10
697.3527293853
 20
-312.2345292136
 10
695.0757985838
 20
-308.7063763741
 10
692.5825129631
 20
-305.4473668729
 10
689.8797064458
 20
-302.4664334283
 10
686.9747872367
 20
-299.7717465719
 10
683.8757175174
 20
-297.370692253
 10
680.5909916226
 20
-295.2698515945
 10
677.1296127577
 20
-293.4749828547
 10
673.5010683215
 20
-291.9910056441
 10
669.7153039021
 20
-290.8219874409
 10
665.7826960167
 20
-289.971132443
 10
661.7140236701
 20
-289.4407727846
 10
657.5204388104
 20
-289.2323621447
 10
653.2134357622
 20
-289.3464717625
 10
648.8048197214
 20
-289.7827888713
 10
644.3066743983
 20
-290.5401175563
 10
639.7313288965
 20
-291.6163820323
 10
635.09132392
 20
-293.008632333
 10
630.3993773998
 20
-294.7130523973
 10
625.6683496353
 20
-296.7249705281
 10
620.9112080448
 20
-299.0388721978
 10
616.1409916226
 20
-301.6484151626
 10
611.3707752004
 20
-304.5464468468
 10
606.6136336099
 20
-307.7250239469
 10
601.8826058454
 20
-311.175434204
 10
597.1906593252
 20
-314.8882202834
 10
592.5506543487
 20
-318.8532056966
 10
587.9753088469
 20
-323.0595226942
 10
583.4771635238
 20
-327.4956420535
 10
579.0685474831
 20
-332.1494046799
 10
574.7615444348
 20
-337.0080549335
 10
570.5679595751
 20
-342.0582755916
 10
566.4992872285
 20
-347.2862243504
 10
562.5666793431
 20
-352.6775717657
 10
558.7809149237
 20
-358.2175405292
 10
555.1523704875
 20
-363.8909459714
 10
551.6909916226
 20
-369.6822376823
 10
548.4062657278
 20
-375.5755421341
 10
545.3071960085
 20
-381.5547061887
 10
542.4022767994
 20
-387.6033413732
 10
539.6994702821
 20
-393.7048687989
 10
537.2061846614
 20
-399.8425646032
 10
534.9292538599
 20
-405.9996057886
 10
532.8749187867
 20
-412.1591163332
 10
531.0488102313
 20
-418.3042134468
 10
529.4559334305
 20
-424.4180538451
 10
528.1006543487
 20
-430.4838799168
 10
526.9866877118
 20
-436.4850656541
 10
526.1170868249
 20
-442.4051622242
 10
525.4942352035
 20
-448.2279430537
 10
525.1198400408
 20
-453.9374483052
 10
524.9949275277
 20
-459.5180286217
 10
525.1198400408
 20
-464.9543880203
 10
525.4942352035
 20
-470.231625818
 10
526.1170868249
 20
-475.3352774726
 10
526.9866877118
 20
-480.2513542298
 10
528.1006543487
 20
-484.9663814648
 10
529.4559334305
 20
-489.4674356158
 10
531.0488102313
 20
-493.7421796062
 10
532.8749187867
 20
-497.7788966598
 10
534.9292538599
 20
-501.5665224158
 10
537.2061846614
 20
-505.0946752553
 10
539.6994702821
 20
-508.3536847565
 10
542.4022767994
 20
-511.3346182011
 10
545.3071960085
 20
-514.0293050575
 10
548.4062657278
 20
-516.4303593764
 10
551.6909916226
 20
-518.5312000349
 10
555.1523704875
 20
-520.3260687747
 10
558.7809149237
 20
-521.8100459853
 10
562.5666793431
 20
-522.9790641885
 10
566.4992872285
 20
-523.8299191864
 10
570.5679595751
 20
-524.3602788448
 10
574.7615444348
 20
-524.5686894847
 10
579.0685474831
 20
-524.4545798669
 10
583.4771635238
 20
-524.0182627581
 10
587.9753088469
 20
-523.2609340731
 10
592.5506543487
 20
-522.1846695972
 10
597.1906593252
 20
-520.7924192964
 10
601.8826058454
 20
-519.0879992321
 10
606.6136336099
 20
-517.0760811013
 10
611.3707752004
 20
-514.7621794316
 10
616.1409916226
 20
-512.1526364668
 10
620.9112080448
 20
-509.2546047826
 10
625.6683496353
 20
-506.0760276825
 10
630.3993773998
 20
-502.6256174254
 10
635.09132392
 20
-498.912831346
 10
639.7313288965
 20
-494.9478459328
 10
644.3066743983
 20
-490.7415289352
 10
648.8048197214
 20
-486.3054095759
 10
653.2134357622
 20
-481.6516469495
 10
657.5204388104
 20
-476.7929966959
 10
661.7140236701
 20
-471.7427760378
 10
665.7826960167
 20
-466.514827279
 10
669.7153039021
 20
-461.1234798637
 10
673.5010683215
 20
-455.5835111002
 10
677.1296127577
 20
-449.910105658
 10
680.5909916226
 20
-444.1188139471
 10
683.8757175174
 20
-438.2255094953
 10
686.9747872367
 20
-432.2463454407
 10
689.8797064458
 20
-426.1977102562
 10
692.5825129631
 20
-420.0961828305
 10
695.0757985838
 20
-413.9584870262
 10
697.3527293853
 20
-407.8014458408
 10
699.4070644585
 20
-401.6419352962
 10
701.2331730139
 20
-395.4968381826
 10
702.8260498148
 20
-389.3829977843
 10
704.1813288965
 20
-383.3171717126
 10
705.2952955334
 20
-377.3159859753
 10
706.1648964203
 20
-371.3958894052
 10
706.7877480417
 20
-365.5731085757
 10
707.1621432045
 20
-359.8636033242
 10
707.2870557176
 20
-354.2830230077
  0
LWPOLYLINE
  5
C9
330
1F
100
AcDbEntity
  8
0
  6
Continuous
 62
     7
370
    25
100
AcDbPolyline
 90
       86
 70
   128
 43
0.0
 10
1128.3691439141
 20
-455.2318860346
 10
1128.2428574286
 20
-451.2151267788
 10
1127.864687705
 20
-447.0744983967
 10
1127.2367001753
 20
-442.8326155644
 10
1126.3623246895
 20
-438.5126459752
 10
1125.2463367834
 20
-434.1381838048
 10
1123.8948315959
 20
-429.7331208487
 10
1122.3151905796
 20
-425.3215160332
 10
1120.5160411861
 20
-420.927464014
 10
1118.5072097454
 20
-416.5749635795
 10
1116.2996677983
 20
-412.2877865777
 10
1113.9054721733
 20
-408.0893480828
 10
1111.3376991367
 20
-404.0025785099
 10
1108.6103729744
 20
-400.0497983773
 10
1105.7383893962
 20
-396.2525963992
 10
1102.7374341804
 20
-392.6317115763
 10
1099.6238975038
 20
-389.2069199256
 10
1096.414784424
 20
-385.9969264717
 10
1093.1276220038
 20
-383.0192630856
 10
1089.7803635845
 20
-380.2901927322
 10
1086.3912907309
 20
-377.8246206473
 10
1082.9789133835
 20
-375.6360129308
 10
1079.5618687642
 20
-373.736322999
 10
1076.1588195858
 20
-372.1359262996
 10
1072.7883521227
 20
-370.8435636443
 10
1069.4688746995
 20
-369.8662934699
 10
1066.2185171508
 20
-369.2094532871
 10
1063.0550318024
 20
-368.8766305292
 10
1059.9956965142
 20
-368.8696429588
 10
1057.0572203147
 20
-369.1885287395
 10
1054.2556521418
 20
-369.8315462278
 10
1051.6062931896
 20
-370.7951834851
 10
1049.1236133378
 20
-372.0741774589
 10
1046.8211721228
 20
-373.6615427276
 10
1044.7115446803
 20
-375.5486096526
 10
1042.8062530636
 20
-377.7250717287
 10
1041.1157033149
 20
-380.1790418748
 10
1039.6491286307
 20
-382.8971173569
 10
1038.4145389334
 20
-385.8644529893
 10
1037.4186771237
 20
-389.0648422137
 10
1036.6669822536
 20
-392.4808056141
 10
1036.1635598197
 20
-396.0936863828
 10
1035.9111593408
 20
-399.883752218
 10
1035.9111593408
 20
-403.8303030944
 10
1036.1635598197
 20
-407.9117843196
 10
1036.6669822536
 20
-412.1059042585
 10
1037.4186771237
 20
-416.3897560824
 10
1038.4145389334
 20
-420.7399428781
 10
1039.6491286307
 20
-425.132705434
 10
1041.1157033149
 20
-429.5440520042
 10
1042.8062530636
 20
-433.9498893434
 10
1044.7115446803
 20
-438.3261542961
 10
1046.8211721228
 20
-442.6489452204
 10
1049.1236133378
 20
-446.8946525315
 10
1051.6062931896
 20
-451.0400876482
 10
1054.2556521418
 20
-455.0626096416
 10
1057.0572203147
 20
-458.9402488914
 10
1059.9956965142
 20
-462.6518270765
 10
1063.0550318024
 20
-466.1770728442
 10
1066.2185171508
 20
-469.4967325244
 10
1069.4688746995
 20
-472.5926752871
 10
1072.7883521227
 20
-475.4479921665
 10
1076.1588195858
 20
-478.0470884121
 10
1079.5618687642
 20
-480.3757686613
 10
1082.9789133835
 20
-482.4213144703
 10
1086.3912907309
 20
-484.172553777
 10
1089.7803635845
 20
-485.6199219197
 10
1093.1276220038
 20
-486.7555138756
 10
1096.414784424
 20
-487.5731274351
 10
1099.6238975038
 20
-488.0682970765
 10
1102.7374341804
 20
-488.2383183549
 10
1105.7383893962
 20
-488.0822626732
 10
1108.6103729745
 20
-487.6009823532
 10
1111.3376991367
 20
-486.7971059812
 10
1113.9054721733
 20
-485.6750240511
 10
1116.2996677983
 20
-484.2408649855
 10
1118.5072097454
 20
-482.5024616637
 10
1120.5160411861
 20
-480.469308642
 10
1122.3151905796
 20
-478.1525102969
 10
1123.8948315959
 20
-475.5647201778
 10
1125.2463367834
 20
-472.7200718969
 10
1126.3623246895
 20
-469.6341019366
 10
1127.2367001753
 20
-466.3236647947
 10
1127.864687705
 20
-462.806840931
 10
1128.2428574286
 20
-459.1028380178
 10
1128.3691439141
 20
-455.2318860346
  0
LWPOLYLINE
  5
CA
330
1F
100
AcDbEntity
  8
0
  6
Continuous
 62
     7
370
    25
100
AcDbPolyline
 90
       95
 70
   128
 43
0.0
 10
1138.6929029195
 20
-461.1916652509
 10
1138.566578498
 20
-456.7556268037
 10
1138.188169429
 20
-452.1935497086
 10
1137.5593657793
 20
-447.5258093093
 10
1136.6829759386
 20
-442.7732528675
 10
1135.5629140768
 20
-437.957106454
 10
1134.2041826619
 20
-433.0988801478
 10
1132.6128501184
 20
-428.220271967
 10
1130.7960237236
 20
-423.3430709599
 10
1128.7618178653
 20
-418.4890598904
 10
1126.5193178007
 20
-413.67991795
 10
1124.0785390793
 20
-408.9371239342
 10
1121.4503828116
 20
-404.2818603123
 10
1118.6465869814
 20
-399.7349186219
 10
1115.6796740214
 20
-395.3166066082
 10
1112.5628948852
 20
-391.0466575253
 10
1109.3101698651
 20
-386.9441420023
 10
1105.9360264206
 20
-383.0273828694
 10
1102.4555342953
 20
-379.3138733238
 10
1098.8842382121
 20
-375.8201988005
 10
1095.2380884461
 20
-372.5619628981
 10
1091.5333695874
 20
-369.5537176891
 10
1087.7866278097
 20
-366.8088987268
 10
1084.0145969714
 20
-364.339765039
 10
1080.2341238777
 20
-362.1573443761
 10
1076.4620930393
 20
-360.2713839587
 10
1072.7153512617
 20
-358.6903069438
 10
1069.010632403
 20
-357.4211748051
 10
1065.364482637
 20
-356.4696557949
 10
1061.7931865538
 20
-355.8399996281
 10
1058.3126944285
 20
-355.5350185018
 10
1054.938550984
 20
-355.556074536
 10
1051.6858259638
 20
-355.9030736892
 10
1048.5690468277
 20
-356.5744661789
 10
1045.6021338677
 20
-357.5672534034
 10
1042.7983380375
 20
-358.8770013338
 10
1040.1701817697
 20
-360.4978603181
 10
1037.7294030484
 20
-362.4225912064
 10
1035.4869029838
 20
-364.6425976834
 10
1033.4526971255
 20
-367.1479646613
 10
1031.6358707307
 20
-369.9275025629
 10
1030.0445381871
 20
-372.9687972973
 10
1028.6858067723
 20
-376.2582657038
 10
1027.5657449104
 20
-379.7812162181
 10
1026.6893550698
 20
-383.5219144879
 10
1026.0605514201
 20
-387.4636536467
 10
1025.6821423511
 20
-391.5888289305
 10
1025.5558179296
 20
-395.8790163051
 10
1025.6821423511
 20
-400.3150547523
 10
1026.0605514201
 20
-404.8771318474
 10
1026.6893550698
 20
-409.5448722467
 10
1027.5657449104
 20
-414.2974286885
 10
1028.6858067723
 20
-419.1135751021
 10
1030.0445381871
 20
-423.9718014082
 10
1031.6358707307
 20
-428.8504095891
 10
1033.4526971255
 20
-433.7276105961
 10
1035.4869029838
 20
-438.5816216657
 10
1037.7294030484
 20
-443.390763606
 10
1040.1701817697
 20
-448.1335576218
 10
1042.7983380375
 20
-452.7888212437
 10
1045.6021338677
 20
-457.3357629341
 10
1048.5690468277
 20
-461.7540749478
 10
1051.6858259639
 20
-466.0240240307
 10
1054.938550984
 20
-470.1265395538
 10
1058.3126944285
 20
-474.0432986866
 10
1061.7931865538
 20
-477.7568082322
 10
1065.364482637
 20
-481.2504827555
 10
1069.010632403
 20
-484.5087186579
 10
1072.7153512617
 20
-487.5169638669
 10
1076.4620930393
 20
-490.2617828292
 10
1080.2341238777
 20
-492.730916517
 10
1084.0145969714
 20
-494.9133371799
 10
1087.7866278097
 20
-496.7992975973
 10
1091.5333695874
 20
-498.3803746122
 10
1095.2380884461
 20
-499.6495067509
 10
1098.8842382121
 20
-500.6010257611
 10
1102.4555342953
 20
-501.2306819279
 10
1105.9360264206
 20
-501.5356630542
 10
1109.3101698651
 20
-501.51460702
 10
1112.5628948852
 20
-501.1676078668
 10
1115.6796740214
 20
-500.4962153771
 10
1118.6465869814
 20
-499.5034281526
 10
1121.4503828116
 20
-498.1936802222
 10
1124.0785390793
 20
-496.5728212379
 10
1126.5193178007
 20
-494.6480903496
 10
1128.7618178653
 20
-492.4280838726
 10
1130.7960237236
 20
-489.9227168947
 10
1132.6128501184
 20
-487.1431789931
 10
1134.2041826619
 20
-484.1018842587
 10
1135.5629140768
 20
-480.8124158522
 10
1136.6829759386
 20
-477.2894653379
 10
1137.5593657793
 20
-473.5487670681
 10
1138.188169429
 20
-469.6070279094
 10
1138.566578498
 20
-465.4818526255
 10
1138.6929029195
 20
-461.1916652509
  0
ENDSEC
  0
SECTION
  2
OBJECTS
  0
DICTIONARY
  5
C
330
0
100
AcDbDictionary
281
     1
  3
ACAD_GROUP
350
D
  3
ACAD_LAYOUT
350
1A
  3
ACAD_MLINESTYLE
350
17
  3
ACAD_PLOTSETTINGS
350
19
  3
ACAD_PLOTSTYLENAME
350
E
  3
ACAD_SCALELIST
350
47
  0
DICTIONARY
  5
D
102
{ACAD_REACTORS
330
C
102
}
330
C
100
AcDbDictionary
281
     1
  0
DICTIONARY
  5
1A
102
{ACAD_REACTORS
330
C
102
}
330
C
100
AcDbDictionary
281
     1
  3
Layout1
350
1E
  3
Layout2
350
26
  3
Model
350
22
  0
DICTIONARY
  5
17
102
{ACAD_REACTORS
330
C
102
}
330
C
100
AcDbDictionary
281
     1
  3
Standard
350
18
  0
DICTIONARY
  5
19
102
{ACAD_REACTORS
330
C
102
}
330
C
100
AcDbDictionary
281
     1
  0
ACDBDICTIONARYWDFLT
  5
E
102
{ACAD_REACTORS
330
C
102
}
330
C
100
AcDbDictionary
281
     1
  3
Normal
350
F
100
AcDbDictionaryWithDefault
340
F
  0
DICTIONARY
  5
47
102
{ACAD_REACTORS
330
C
102
}
330
C
100
AcDbDictionary
281
     1
  3
A0
350
48
  3
A1
350
49
  3
A2
350
4A
  3
A3
350
4B
  3
A4
350
4C
  3
A5
350
4D
  3
A6
350
4E
  3
A7
350
4F
  3
A8
350
50
  3
A9
350
51
  3
B0
350
52
  3
B1
350
53
  3
B2
350
54
  3
B3
350
55
  3
B4
350
56
  3
B5
350
57
  3
B6
350
58
  3
B7
350
59
  3
B8
350
5A
  3
B9
350
5B
  3
C0
350
5C
  3
C1
350
5D
  3
C2
350
5E
  3
C3
350
5F
  3
C4
350
60
  3
C5
350
61
  3
C6
350
62
  3
C7
350
63
  3
C8
350
64
  3
C9
350
65
  3
D0
350
66
  3
D1
350
67
  3
D2
350
68
  0
LAYOUT
  5
1E
102
{ACAD_REACTORS
330
1A
102
}
330
1A
100
AcDbPlotSettings
  1

  2
none_device
  4

  6

 40
0.0
 41
0.0
 42
0.0
 43
0.0
 44
0.0
 45
0.0
 46
0.0
 47
0.0
 48
0.0
 49
0.0
140
0.0
141
0.0
142
1.0
143
1.0
 70
   688
 72
     1
 73
     0
 74
     5
  7

 75
    16
147
1.0
148
0.0
149
0.0
100
AcDbLayout
  1
Layout1
 70
     1
 71
     1
 10
0.0
 20
0.0
 11
420.0
 21
297.0
 12
0.0
 22
0.0
 32
0.0
 14
1.0000000000E+20
 24
1.0000000000E+20
 34
1.0000000000E+20
 15
-1.0000000000E+20
 25
-1.0000000000E+20
 35
-1.0000000000E+20
146
0.0
 13
0.0
 23
0.0
 33
0.0
 16
1.0
 26
0.0
 36
0.0
 17
0.0
 27
1.0
 37
0.0
 76
     0
330
1B
  0
LAYOUT
  5
26
102
{ACAD_REACTORS
330
1A
102
}
330
1A
100
AcDbPlotSettings
  1

  2
none_device
  4

  6

 40
0.0
 41
0.0
 42
0.0
 43
0.0
 44
0.0
 45
0.0
 46
0.0
 47
0.0
 48
0.0
 49
0.0
140
0.0
141
0.0
142
1.0
143
1.0
 70
   688
 72
     1
 73
     0
 74
     5
  7

 75
    16
147
1.0
148
0.0
149
0.0
100
AcDbLayout
  1
Layout2
 70
     1
 71
     2
 10
0.0
 20
0.0
 11
0.0
 21
0.0
 12
0.0
 22
0.0
 32
0.0
 14
0.0
 24
0.0
 34
0.0
 15
0.0
 25
0.0
 35
0.0
146
0.0
 13
0.0
 23
0.0
 33
0.0
 16
1.0
 26
0.0
 36
0.0
 17
0.0
 27
1.0
 37
0.0
 76
     0
330
23
  0
LAYOUT
  5
22
102
{ACAD_REACTORS
330
1A
102
}
330
1A
100
AcDbPlotSettings
  1

  2
none_device
  4
Letter_(8.50_x_11.00_Inches)
  6

 40
6.35
 41
6.35
 42
6.35000508
 43
6.35000508
 44
215.9
 45
279.4
 46
0.0
 47
0.0
 48
0.0
 49
0.0
140
0.0
141
0.0
142
1.0
143
1.0
 70
  1712
 72
     1
 73
     0
 74
     0
  7

 75
     0
147
1.0
148
0.0
149
0.0
100
AcDbLayout
  1
Model
 70
     1
 71
     0
 10
0.0
 20
0.0
 11
279.4
 21
215.9
 12
0.0
 22
0.0
 32
0.0
 14
0.0
 24
0.0
 34
0.0
 15
279.4
 25
215.9
 35
0.0
146
0.0
 13
0.0
 23
0.0
 33
0.0
 16
1.0
 26
0.0
 36
0.0
 17
0.0
 27
1.0
 37
0.0
 76
     0
330
1F
331
29
  0
MLINESTYLE
  5
18
102
{ACAD_REACTORS
330
17
102
}
330
17
100
AcDbMlineStyle
  2
Standard
 70
     0
  3

 62
   256
 51
90.0
 52
90.0
 71
     2
 49
0.5
 62
   256
  6
BYLAYER
 49
-0.5
 62
   256
  6
BYLAYER
  0
ACDBPLACEHOLDER
  5
F
102
{ACAD_REACTORS
330
E
102
}
330
E
  0
SCALE
  5
48
102
{ACAD_REACTORS
330
47
102
}
330
47
100
AcDbScale
 70
     0
300
1:1
140
1.0
141
1.0
290
     1
  0
SCALE
  5
49
102
{ACAD_REACTORS
330
47
102
}
330
47
100
AcDbScale
 70
     0
300
1:2
140
1.0
141
2.0
290
     0
  0
SCALE
  5
4A
102
{ACAD_REACTORS
330
47
102
}
330
47
100
AcDbScale
 70
     0
300
1:4
140
1.0
141
4.0
290
     0
  0
SCALE
  5
4B
102
{ACAD_REACTORS
330
47
102
}
330
47
100
AcDbScale
 70
     0
300
1:5
140
1.0
141
5.0
290
     0
  0
SCALE
  5
4C
102
{ACAD_REACTORS
330
47
102
}
330
47
100
AcDbScale
 70
     0
300
1:8
140
1.0
141
8.0
290
     0
  0
SCALE
  5
4D
102
{ACAD_REACTORS
330
47
102
}
330
47
100
AcDbScale
 70
     0
300
1:10
140
1.0
141
10.0
290
     0
  0
SCALE
  5
4E
102
{ACAD_REACTORS
330
47
102
}
330
47
100
AcDbScale
 70
     0
300
1:16
140
1.0
141
16.0
290
     0
  0
SCALE
  5
4F
102
{ACAD_REACTORS
330
47
102
}
330
47
100
AcDbScale
 70
     0
300
1:20
140
1.0
141
20.0
290
     0
  0
SCALE
  5
50
102
{ACAD_REACTORS
330
47
102
}
330
47
100
AcDbScale
 70
     0
300
1:30
140
1.0
141
30.0
290
     0
  0
SCALE
  5
51
102
{ACAD_REACTORS
330
47
102
}
330
47
100
AcDbScale
 70
     0
300
1:40
140
1.0
141
40.0
290
     0
  0
SCALE
  5
52
102
{ACAD_REACTORS
330
47
102
}
330
47
100
AcDbScale
 70
     0
300
1:50
140
1.0
141
50.0
290
     0
  0
SCALE
  5
53
102
{ACAD_REACTORS
330
47
102
}
330
47
100
AcDbScale
 70
     0
300
1:100
140
1.0
141
100.0
290
     0
  0
SCALE
  5
54
102
{ACAD_REACTORS
330
47
102
}
330
47
100
AcDbScale
 70
     0
300
2:1
140
2.0
141
1.0
290
     0
  0
SCALE
  5
55
102
{ACAD_REACTORS
330
47
102
}
330
47
100
AcDbScale
 70
     0
300
4:1
140
4.0
141
1.0
290
     0
  0
SCALE
  5
56
102
{ACAD_REACTORS
330
47
102
}
330
47
100
AcDbScale
 70
     0
300
8:1
140
8.0
141
1.0
290
     0
  0
SCALE
  5
57
102
{ACAD_REACTORS
330
47
102
}
330
47
100
AcDbScale
 70
     0
300
10:1
140
10.0
141
1.0
290
     0
  0
SCALE
  5
58
102
{ACAD_REACTORS
330
47
102
}
330
47
100
AcDbScale
 70
     0
300
100:1
140
100.0
141
1.0
290
     0
  0
SCALE
  5
59
102
{ACAD_REACTORS
330
47
102
}
330
47
100
AcDbScale
 70
     0
300
1/128" = 1'-0"
140
0.0078125
141
12.0
290
     0
  0
SCALE
  5
5A
102
{ACAD_REACTORS
330
47
102
}
330
47
100
AcDbScale
 70
     0
300
1/64" = 1'-0"
140
0.015625
141
12.0
290
     0
  0
SCALE
  5
5B
102
{ACAD_REACTORS
330
47
102
}
330
47
100
AcDbScale
 70
     0
300
1/32" = 1'-0"
140
0.03125
141
12.0
290
     0
  0
SCALE
  5
5C
102
{ACAD_REACTORS
330
47
102
}
330
47
100
AcDbScale
 70
     0
300
1/16" = 1'-0"
140
0.0625
141
12.0
290
     0
  0
SCALE
  5
5D
102
{ACAD_REACTORS
330
47
102
}
330
47
100
AcDbScale
 70
     0
300
3/32" = 1'-0"
140
0.09375
141
12.0
290
     0
  0
SCALE
  5
5E
102
{ACAD_REACTORS
330
47
102
}
330
47
100
AcDbScale
 70
     0
300
1/8" = 1'-0"
140
0.125
141
12.0
290
     0
  0
SCALE
  5
5F
102
{ACAD_REACTORS
330
47
102
}
330
47
100
AcDbScale
 70
     0
300
3/16" = 1'-0"
140
0.1875
141
12.0
290
     0
  0
SCALE
  5
60
102
{ACAD_REACTORS
330
47
102
}
330
47
100
AcDbScale
 70
     0
300
1/4" = 1'-0"
140
0.25
141
12.0
290
     0
  0
SCALE
  5
61
102
{ACAD_REACTORS
330
47
102
}
330
47
100
AcDbScale
 70
     0
300
3/8" = 1'-0"
140
0.375
141
12.0
290
     0
  0
SCALE
  5
62
102
{ACAD_REACTORS
330
47
102
}
330
47
100
AcDbScale
 70
     0
300
1/2" = 1'-0"
140
0.5
141
12.0
290
     0
  0
SCALE
  5
63
102
{ACAD_REACTORS
330
47
102
}
330
47
100
AcDbScale
 70
     0
300
3/4" = 1'-0"
140
0.75
141
12.0
290
     0
  0
SCALE
  5
64
102
{ACAD_REACTORS
330
47
102
}
330
47
100
AcDbScale
 70
     0
300
1" = 1'-0"
140
1.0
141
12.0
290
     0
  0
SCALE
  5
65
102
{ACAD_REACTORS
330
47
102
}
330
47
100
AcDbScale
 70
     0
300
1-1/2" = 1'-0"
140
1.5
141
12.0
290
     0
  0
SCALE
  5
66
102
{ACAD_REACTORS
330
47
102
}
330
47
100
AcDbScale
 70
     0
300
3" = 1'-0"
140
3.0
141
12.0
290
     0
  0
SCALE
  5
67
102
{ACAD_REACTORS
330
47
102
}
330
47
100
AcDbScale
 70
     0
300
6" = 1'-0"
140
6.0
141
12.0
290
     0
  0
SCALE
  5
68
102
{ACAD_REACTORS
330
47
102
}
330
47
100
AcDbScale
 70
     0
300
1'-0" = 1'-0"
140
12.0
141
12.0
290
     0
  0
ENDSEC
  0
EOF
